ISO-10303-21;
HEADER;
/****************************************************************
 * Generated by software with PDE/Lib inside                    *
 * PDE/Lib Version 3.2.2, created Thu Mar 23, 2000 at 18:38:49  *
 * International Technegroup Inc. (www.iti-oh.com)              *
 ****************************************************************/
FILE_DESCRIPTION((''),'2;1');
FILE_NAME('NAS_22.stp','2007-09-20T13:01:25',(''),(''),'AutoCAD STEP 2000i','AutoCAD 2000i',', , ');
FILE_SCHEMA(('CONFIG_CONTROL_DESIGN'));
ENDSEC;
DATA;
#8=(NAMED_UNIT(*)PLANE_ANGLE_UNIT()SI_UNIT($,.RADIAN.));
#9=DIMENSIONAL_EXPONENTS(0.0,0.0,0.0,0.0,0.0,0.0,0.0);
#10=PLANE_ANGLE_MEASURE_WITH_UNIT(PLANE_ANGLE_MEASURE(0.017453292500000),#8);
#14=(CONVERSION_BASED_UNIT('DEGREE',#10)NAMED_UNIT(#9)PLANE_ANGLE_UNIT());
#18=(NAMED_UNIT(*)SI_UNIT($,.STERADIAN.)SOLID_ANGLE_UNIT());
#22=(LENGTH_UNIT()NAMED_UNIT(*)SI_UNIT(.MILLI.,.METRE.));
#23=UNCERTAINTY_MEASURE_WITH_UNIT(LENGTH_MEASURE(0.000001000000000),#22,'DISTANCE_ACCURACY_VALUE','');
#28=(GEOMETRIC_REPRESENTATION_CONTEXT(3)GLOBAL_UNCERTAINTY_ASSIGNED_CONTEXT((#23))GLOBAL_UNIT_ASSIGNED_CONTEXT((#14,#18,#22))REPRESENTATION_CONTEXT('None','None'));
#29=APPLICATION_CONTEXT('CONFIGURATION CONTROLLED 3D DESIGNS OF MECHANICAL PARTS AND ASSEMBLIES');
#30=APPLICATION_PROTOCOL_DEFINITION('INTERNATIONAL STANDARD','config_control_design',1995,#29);
#31=MECHANICAL_CONTEXT('3D Mechanical Parts',#29,'mechanical');
#32=PRODUCT('NAS_22','NAS_22',' ',(#31));
#33=PRODUCT_RELATED_PRODUCT_CATEGORY('detail',$,(#32,#130));
#34=PRODUCT_CATEGORY('part',$);
#35=PRODUCT_CATEGORY_RELATIONSHIP('None','None',#34,#33);
#36=PERSON('1','Design','Joe',$,$,$);
#37=ORGANIZATION($,'None','None');
#38=PERSON_AND_ORGANIZATION(#36,#37);
#39=PERSON_AND_ORGANIZATION_ROLE('design_owner');
#40=CC_DESIGN_PERSON_AND_ORGANIZATION_ASSIGNMENT(#38,#39,(#32,#130));
#41=PRODUCT_DEFINITION_FORMATION_WITH_SPECIFIED_SOURCE('None','None',#32,.NOT_KNOWN.);
#42=PERSON('2','Creator','Joe',$,$,$);
#43=ORGANIZATION($,'None','None');
#44=PERSON_AND_ORGANIZATION(#42,#43);
#45=PERSON_AND_ORGANIZATION_ROLE('creator');
#46=CC_DESIGN_PERSON_AND_ORGANIZATION_ASSIGNMENT(#44,#45,(#41,#131));
#47=PERSON('3','Supplier','Joe',$,$,$);
#48=ORGANIZATION($,'None','None');
#49=PERSON_AND_ORGANIZATION(#47,#48);
#50=PERSON_AND_ORGANIZATION_ROLE('design_supplier');
#51=CC_DESIGN_PERSON_AND_ORGANIZATION_ASSIGNMENT(#49,#50,(#41,#131));
#52=APPROVAL_STATUS('approved');
#53=APPROVAL(#52,'None');
#54=PERSON('4','Approver','Joe',$,$,$);
#55=ORGANIZATION($,'None','None');
#56=PERSON_AND_ORGANIZATION(#54,#55);
#57=APPROVAL_ROLE('approver');
#58=APPROVAL_PERSON_ORGANIZATION(#56,#53,#57);
#59=COORDINATED_UNIVERSAL_TIME_OFFSET(8,$,.BEHIND.);
#60=CALENDAR_DATE(1996,29,5);
#61=LOCAL_TIME(12,0,0.0,#59);
#62=DATE_AND_TIME(#60,#61);
#63=APPROVAL_DATE_TIME(#62,#53);
#64=CC_DESIGN_APPROVAL(#53,(#41,#131));
#65=SECURITY_CLASSIFICATION_LEVEL('unclassified');
#66=SECURITY_CLASSIFICATION('security','None',#65);
#67=CC_DESIGN_SECURITY_CLASSIFICATION(#66,(#41,#131,#443));
#68=APPROVAL_STATUS('approved');
#69=APPROVAL(#68,'None');
#70=PERSON('5','Approver','Joe',$,$,$);
#71=ORGANIZATION($,'None','None');
#72=PERSON_AND_ORGANIZATION(#70,#71);
#73=APPROVAL_ROLE('approver');
#74=APPROVAL_PERSON_ORGANIZATION(#72,#69,#73);
#75=COORDINATED_UNIVERSAL_TIME_OFFSET(8,$,.BEHIND.);
#76=CALENDAR_DATE(1996,29,5);
#77=LOCAL_TIME(12,0,0.0,#75);
#78=DATE_AND_TIME(#76,#77);
#79=APPROVAL_DATE_TIME(#78,#69);
#80=CC_DESIGN_APPROVAL(#69,(#66));
#81=PERSON('6','Classifier','Joe',$,$,$);
#82=ORGANIZATION($,'None','None');
#83=PERSON_AND_ORGANIZATION(#81,#82);
#84=PERSON_AND_ORGANIZATION_ROLE('classification_officer');
#85=CC_DESIGN_PERSON_AND_ORGANIZATION_ASSIGNMENT(#83,#84,(#66));
#86=COORDINATED_UNIVERSAL_TIME_OFFSET(8,$,.BEHIND.);
#87=CALENDAR_DATE(1996,29,5);
#88=LOCAL_TIME(12,0,0.0,#86);
#89=DATE_AND_TIME(#87,#88);
#90=DATE_TIME_ROLE('classification_date');
#91=CC_DESIGN_DATE_AND_TIME_ASSIGNMENT(#89,#90,(#66));
#92=DESIGN_CONTEXT('Design Context',#29,'design');
#93=PRODUCT_DEFINITION('None','None',#41,#92);
#94=PERSON('7','Creator','Joe',$,$,$);
#95=ORGANIZATION($,'None','None');
#96=PERSON_AND_ORGANIZATION(#94,#95);
#97=PERSON_AND_ORGANIZATION_ROLE('creator');
#98=CC_DESIGN_PERSON_AND_ORGANIZATION_ASSIGNMENT(#96,#97,(#93,#132));
#99=COORDINATED_UNIVERSAL_TIME_OFFSET(8,$,.BEHIND.);
#100=CALENDAR_DATE(1996,29,5);
#101=LOCAL_TIME(12,0,0.0,#99);
#102=DATE_AND_TIME(#100,#101);
#103=DATE_TIME_ROLE('creation_date');
#104=CC_DESIGN_DATE_AND_TIME_ASSIGNMENT(#102,#103,(#93,#132));
#105=APPROVAL_STATUS('approved');
#106=APPROVAL(#105,'None');
#107=PERSON('8','Approver','Joe',$,$,$);
#108=ORGANIZATION($,'None','None');
#109=PERSON_AND_ORGANIZATION(#107,#108);
#110=APPROVAL_ROLE('approver');
#111=APPROVAL_PERSON_ORGANIZATION(#109,#106,#110);
#112=COORDINATED_UNIVERSAL_TIME_OFFSET(8,$,.BEHIND.);
#113=CALENDAR_DATE(1996,29,5);
#114=LOCAL_TIME(12,0,0.0,#112);
#115=DATE_AND_TIME(#113,#114);
#116=APPROVAL_DATE_TIME(#115,#106);
#117=CC_DESIGN_APPROVAL(#106,(#93,#132));
#118=CARTESIAN_POINT('NONE',(0.0,0.0,0.0));
#119=DIRECTION('NONE',(0.0,0.0,1.0));
#120=DIRECTION('NONE',(1.0,0.0,0.0));
#121=AXIS2_PLACEMENT_3D('NONE',#118,#119,#120);
#122=SHAPE_REPRESENTATION('SR1',(#121,#437),#28);
#123=PRODUCT_DEFINITION_SHAPE('PDS1','Test Part',#93);
#124=SHAPE_DEFINITION_REPRESENTATION(#123,#122);
#129=(GEOMETRIC_REPRESENTATION_CONTEXT(3)GLOBAL_UNCERTAINTY_ASSIGNED_CONTEXT((#23))GLOBAL_UNIT_ASSIGNED_CONTEXT((#14,#18,#22))REPRESENTATION_CONTEXT('Component','Component'));
#130=PRODUCT('M15.198.4','M15.198.4',' ',(#31));
#131=PRODUCT_DEFINITION_FORMATION_WITH_SPECIFIED_SOURCE('None','None',#130,.NOT_KNOWN.);
#132=PRODUCT_DEFINITION('None','None',#131,#92);
#133=SHAPE_REPRESENTATION('SR2',(#121),#129);
#134=PRODUCT_DEFINITION_SHAPE('PDS2','Test Part',#132);
#135=SHAPE_DEFINITION_REPRESENTATION(#134,#133);
#136=CARTESIAN_POINT('',(0.0,0.0,-0.150000000000000));
#137=DIRECTION('',(0.0,0.0,1.0));
#138=DIRECTION('',(1.0,0.0,0.0));
#139=AXIS2_PLACEMENT_3D('',#136,#137,#138);
#140=CYLINDRICAL_SURFACE('',#139,11.250000000000000);
#141=CARTESIAN_POINT('',(-11.250000000000000,1.377682E-015,0.150000000000000));
#142=VERTEX_POINT('',#141);
#143=CARTESIAN_POINT('',(-11.250000000000000,1.377682E-015,-0.150000000000000));
#144=VERTEX_POINT('',#143);
#145=CARTESIAN_POINT('',(-11.250000000000000,1.377682E-015,0.150000000000000));
#146=DIRECTION('',(0.0,0.0,-1.0));
#147=VECTOR('',#146,0.300000000000000);
#148=LINE('',#145,#147);
#149=EDGE_CURVE('',#142,#144,#148,.T.);
#150=ORIENTED_EDGE('',*,*,#149,.T.);
#151=CARTESIAN_POINT('',(-1.099999999999998,11.196093068566375,-0.150000000000000));
#152=VERTEX_POINT('',#151);
#153=CARTESIAN_POINT('',(0.0,0.0,-0.150000000000000));
#154=DIRECTION('',(0.0,0.0,-1.0));
#155=DIRECTION('',(1.0,0.0,0.0));
#156=AXIS2_PLACEMENT_3D('',#153,#154,#155);
#157=CIRCLE('',#156,11.250000000000000);
#158=EDGE_CURVE('',#144,#152,#157,.T.);
#159=ORIENTED_EDGE('',*,*,#158,.T.);
#160=CARTESIAN_POINT('',(-1.099999999999998,11.196093068566375,0.150000000000000));
#161=VERTEX_POINT('',#160);
#162=CARTESIAN_POINT('',(-1.099999999999998,11.196093068566375,-0.150000000000000));
#163=DIRECTION('',(0.0,0.0,1.0));
#164=VECTOR('',#163,0.300000000000000);
#165=LINE('',#162,#164);
#166=EDGE_CURVE('',#152,#161,#165,.T.);
#167=ORIENTED_EDGE('',*,*,#166,.T.);
#168=CARTESIAN_POINT('',(0.0,0.0,0.150000000000000));
#169=DIRECTION('',(0.0,0.0,1.0));
#170=DIRECTION('',(1.0,0.0,0.0));
#171=AXIS2_PLACEMENT_3D('',#168,#169,#170);
#172=CIRCLE('',#171,11.250000000000000);
#173=EDGE_CURVE('',#161,#142,#172,.T.);
#174=ORIENTED_EDGE('',*,*,#173,.T.);
#175=EDGE_LOOP('',(#150,#159,#167,#174));
#176=FACE_OUTER_BOUND('',#175,.T.);
#177=ADVANCED_FACE('',(#176),#140,.F.);
#178=CARTESIAN_POINT('',(0.0,0.0,-0.150000000000000));
#179=DIRECTION('',(0.0,0.0,1.0));
#180=DIRECTION('',(1.0,0.0,0.0));
#181=AXIS2_PLACEMENT_3D('',#178,#179,#180);
#182=CYLINDRICAL_SURFACE('',#181,11.250000000000000);
#183=CARTESIAN_POINT('',(11.250000000000000,-1.377682E-015,-0.150000000000000));
#184=VERTEX_POINT('',#183);
#185=CARTESIAN_POINT('',(11.250000000000000,-1.377682E-015,0.150000000000000));
#186=VERTEX_POINT('',#185);
#187=CARTESIAN_POINT('',(11.250000000000000,-1.377682E-015,-0.150000000000000));
#188=DIRECTION('',(0.0,0.0,1.0));
#189=VECTOR('',#188,0.300000000000000);
#190=LINE('',#187,#189);
#191=EDGE_CURVE('',#184,#186,#190,.T.);
#192=ORIENTED_EDGE('',*,*,#191,.F.);
#193=CARTESIAN_POINT('',(0.0,0.0,-0.150000000000000));
#194=DIRECTION('',(0.0,0.0,-1.0));
#195=DIRECTION('',(1.0,0.0,0.0));
#196=AXIS2_PLACEMENT_3D('',#193,#194,#195);
#197=CIRCLE('',#196,11.250000000000000);
#198=EDGE_CURVE('',#184,#144,#197,.T.);
#199=ORIENTED_EDGE('',*,*,#198,.T.);
#200=ORIENTED_EDGE('',*,*,#149,.F.);
#201=CARTESIAN_POINT('',(0.0,0.0,0.150000000000000));
#202=DIRECTION('',(0.0,0.0,1.0));
#203=DIRECTION('',(1.0,0.0,0.0));
#204=AXIS2_PLACEMENT_3D('',#201,#202,#203);
#205=CIRCLE('',#204,11.250000000000000);
#206=EDGE_CURVE('',#142,#186,#205,.T.);
#207=ORIENTED_EDGE('',*,*,#206,.T.);
#208=EDGE_LOOP('',(#192,#199,#200,#207));
#209=FACE_OUTER_BOUND('',#208,.T.);
#210=ADVANCED_FACE('',(#209),#182,.F.);
#211=CARTESIAN_POINT('',(0.0,0.0,-0.150000000000000));
#212=DIRECTION('',(0.0,0.0,1.0));
#213=DIRECTION('',(1.0,0.0,0.0));
#214=AXIS2_PLACEMENT_3D('',#211,#212,#213);
#215=CYLINDRICAL_SURFACE('',#214,37.500000000000000);
#216=CARTESIAN_POINT('',(37.500000000000000,0.0,-0.150000000000000));
#217=VERTEX_POINT('',#216);
#218=CARTESIAN_POINT('',(37.500000000000000,0.0,0.150000000000000));
#219=VERTEX_POINT('',#218);
#220=CARTESIAN_POINT('',(37.500000000000000,0.0,-0.150000000000000));
#221=DIRECTION('',(0.0,0.0,1.0));
#222=VECTOR('',#221,0.300000000000000);
#223=LINE('',#220,#222);
#224=EDGE_CURVE('',#217,#219,#223,.T.);
#225=ORIENTED_EDGE('',*,*,#224,.F.);
#226=CARTESIAN_POINT('',(-37.500000000000000,4.592274E-015,-0.150000000000000));
#227=VERTEX_POINT('',#226);
#228=CARTESIAN_POINT('',(0.0,0.0,-0.150000000000000));
#229=DIRECTION('',(0.0,0.0,1.0));
#230=DIRECTION('',(1.0,0.0,0.0));
#231=AXIS2_PLACEMENT_3D('',#228,#229,#230);
#232=CIRCLE('',#231,37.500000000000000);
#233=EDGE_CURVE('',#217,#227,#232,.T.);
#234=ORIENTED_EDGE('',*,*,#233,.T.);
#235=CARTESIAN_POINT('',(-37.500000000000000,4.592274E-015,0.150000000000000));
#236=VERTEX_POINT('',#235);
#237=CARTESIAN_POINT('',(-37.500000000000000,4.592274E-015,0.150000000000000));
#238=DIRECTION('',(0.0,0.0,-1.0));
#239=VECTOR('',#238,0.300000000000000);
#240=LINE('',#237,#239);
#241=EDGE_CURVE('',#236,#227,#240,.T.);
#242=ORIENTED_EDGE('',*,*,#241,.F.);
#243=CARTESIAN_POINT('',(0.0,0.0,0.150000000000000));
#244=DIRECTION('',(0.0,0.0,-1.0));
#245=DIRECTION('',(1.0,0.0,0.0));
#246=AXIS2_PLACEMENT_3D('',#243,#244,#245);
#247=CIRCLE('',#246,37.500000000000000);
#248=EDGE_CURVE('',#236,#219,#247,.T.);
#249=ORIENTED_EDGE('',*,*,#248,.T.);
#250=EDGE_LOOP('',(#225,#234,#242,#249));
#251=FACE_OUTER_BOUND('',#250,.T.);
#252=ADVANCED_FACE('',(#251),#215,.T.);
#253=CARTESIAN_POINT('',(0.0,0.0,-0.150000000000000));
#254=DIRECTION('',(0.0,0.0,1.0));
#255=DIRECTION('',(1.0,0.0,0.0));
#256=AXIS2_PLACEMENT_3D('',#253,#254,#255);
#257=CYLINDRICAL_SURFACE('',#256,37.500000000000000);
#258=ORIENTED_EDGE('',*,*,#224,.T.);
#259=CARTESIAN_POINT('',(0.0,0.0,0.150000000000000));
#260=DIRECTION('',(0.0,0.0,-1.0));
#261=DIRECTION('',(1.0,0.0,0.0));
#262=AXIS2_PLACEMENT_3D('',#259,#260,#261);
#263=CIRCLE('',#262,37.500000000000000);
#264=EDGE_CURVE('',#219,#236,#263,.T.);
#265=ORIENTED_EDGE('',*,*,#264,.T.);
#266=ORIENTED_EDGE('',*,*,#241,.T.);
#267=CARTESIAN_POINT('',(0.0,0.0,-0.150000000000000));
#268=DIRECTION('',(0.0,0.0,1.0));
#269=DIRECTION('',(1.0,0.0,0.0));
#270=AXIS2_PLACEMENT_3D('',#267,#268,#269);
#271=CIRCLE('',#270,37.500000000000000);
#272=EDGE_CURVE('',#227,#217,#271,.T.);
#273=ORIENTED_EDGE('',*,*,#272,.T.);
#274=EDGE_LOOP('',(#258,#265,#266,#273));
#275=FACE_OUTER_BOUND('',#274,.T.);
#276=ADVANCED_FACE('',(#275),#257,.T.);
#277=CARTESIAN_POINT('',(0.0,0.0,-0.150000000000000));
#278=DIRECTION('',(0.0,0.0,1.0));
#279=DIRECTION('',(1.0,0.0,0.0));
#280=AXIS2_PLACEMENT_3D('',#277,#278,#279);
#281=CYLINDRICAL_SURFACE('',#280,11.250000000000000);
#282=ORIENTED_EDGE('',*,*,#191,.T.);
#283=CARTESIAN_POINT('',(1.099999999999999,11.196093068566373,0.150000000000000));
#284=VERTEX_POINT('',#283);
#285=CARTESIAN_POINT('',(0.0,0.0,0.150000000000000));
#286=DIRECTION('',(0.0,0.0,1.0));
#287=DIRECTION('',(1.0,0.0,0.0));
#288=AXIS2_PLACEMENT_3D('',#285,#286,#287);
#289=CIRCLE('',#288,11.250000000000000);
#290=EDGE_CURVE('',#186,#284,#289,.T.);
#291=ORIENTED_EDGE('',*,*,#290,.T.);
#292=CARTESIAN_POINT('',(1.099999999999999,11.196093068566373,-0.150000000000000));
#293=VERTEX_POINT('',#292);
#294=CARTESIAN_POINT('',(1.099999999999999,11.196093068566373,-0.150000000000000));
#295=DIRECTION('',(0.0,0.0,1.0));
#296=VECTOR('',#295,0.300000000000000);
#297=LINE('',#294,#296);
#298=EDGE_CURVE('',#293,#284,#297,.T.);
#299=ORIENTED_EDGE('',*,*,#298,.F.);
#300=CARTESIAN_POINT('',(0.0,0.0,-0.150000000000000));
#301=DIRECTION('',(0.0,0.0,-1.0));
#302=DIRECTION('',(1.0,0.0,0.0));
#303=AXIS2_PLACEMENT_3D('',#300,#301,#302);
#304=CIRCLE('',#303,11.250000000000000);
#305=EDGE_CURVE('',#293,#184,#304,.T.);
#306=ORIENTED_EDGE('',*,*,#305,.T.);
#307=EDGE_LOOP('',(#282,#291,#299,#306));
#308=FACE_OUTER_BOUND('',#307,.T.);
#309=ADVANCED_FACE('',(#308),#281,.F.);
#310=CARTESIAN_POINT('',(1.099999999999999,11.196093068566373,-0.150000000000000));
#311=DIRECTION('',(-1.0,0.0,0.0));
#312=DIRECTION('',(0.0,0.0,1.0));
#313=AXIS2_PLACEMENT_3D('',#310,#311,#312);
#314=PLANE('',#313);
#315=CARTESIAN_POINT('',(1.100000000000000,12.699999999999998,0.150000000000000));
#316=VERTEX_POINT('',#315);
#317=CARTESIAN_POINT('',(1.099999999999999,11.196093068566373,0.150000000000000));
#318=DIRECTION('',(0.0,1.0,0.0));
#319=VECTOR('',#318,1.503906931433624);
#320=LINE('',#317,#319);
#321=EDGE_CURVE('',#284,#316,#320,.T.);
#322=ORIENTED_EDGE('',*,*,#321,.T.);
#323=CARTESIAN_POINT('',(1.100000000000000,12.699999999999998,-0.150000000000000));
#324=VERTEX_POINT('',#323);
#325=CARTESIAN_POINT('',(1.100000000000000,12.699999999999998,-0.150000000000000));
#326=DIRECTION('',(0.0,0.0,1.0));
#327=VECTOR('',#326,0.300000000000000);
#328=LINE('',#325,#327);
#329=EDGE_CURVE('',#324,#316,#328,.T.);
#330=ORIENTED_EDGE('',*,*,#329,.F.);
#331=CARTESIAN_POINT('',(1.100000000000000,12.699999999999998,-0.150000000000000));
#332=DIRECTION('',(0.0,-1.0,0.0));
#333=VECTOR('',#332,1.503906931433624);
#334=LINE('',#331,#333);
#335=EDGE_CURVE('',#324,#293,#334,.T.);
#336=ORIENTED_EDGE('',*,*,#335,.T.);
#337=ORIENTED_EDGE('',*,*,#298,.T.);
#338=EDGE_LOOP('',(#322,#330,#336,#337));
#339=FACE_OUTER_BOUND('',#338,.T.);
#340=ADVANCED_FACE('',(#339),#314,.T.);
#341=CARTESIAN_POINT('',(1.100000000000000,12.699999999999998,-0.150000000000000));
#342=DIRECTION('',(0.0,-1.0,0.0));
#343=DIRECTION('',(0.0,0.0,-1.0));
#344=AXIS2_PLACEMENT_3D('',#341,#342,#343);
#345=PLANE('',#344);
#346=CARTESIAN_POINT('',(-1.100000000000000,12.699999999999996,0.150000000000000));
#347=VERTEX_POINT('',#346);
#348=CARTESIAN_POINT('',(1.100000000000000,12.699999999999998,0.150000000000000));
#349=DIRECTION('',(-1.0,0.0,0.0));
#350=VECTOR('',#349,2.200000000000000);
#351=LINE('',#348,#350);
#352=EDGE_CURVE('',#316,#347,#351,.T.);
#353=ORIENTED_EDGE('',*,*,#352,.T.);
#354=CARTESIAN_POINT('',(-1.100000000000000,12.699999999999996,-0.150000000000000));
#355=VERTEX_POINT('',#354);
#356=CARTESIAN_POINT('',(-1.100000000000000,12.699999999999996,-0.150000000000000));
#357=DIRECTION('',(0.0,0.0,1.0));
#358=VECTOR('',#357,0.300000000000000);
#359=LINE('',#356,#358);
#360=EDGE_CURVE('',#355,#347,#359,.T.);
#361=ORIENTED_EDGE('',*,*,#360,.F.);
#362=CARTESIAN_POINT('',(-1.100000000000000,12.699999999999996,-0.150000000000000));
#363=DIRECTION('',(1.0,0.0,0.0));
#364=VECTOR('',#363,2.200000000000000);
#365=LINE('',#362,#364);
#366=EDGE_CURVE('',#355,#324,#365,.T.);
#367=ORIENTED_EDGE('',*,*,#366,.T.);
#368=ORIENTED_EDGE('',*,*,#329,.T.);
#369=EDGE_LOOP('',(#353,#361,#367,#368));
#370=FACE_OUTER_BOUND('',#369,.T.);
#371=ADVANCED_FACE('',(#370),#345,.T.);
#372=CARTESIAN_POINT('',(-1.100000000000000,12.699999999999996,-0.150000000000000));
#373=DIRECTION('',(1.0,0.0,0.0));
#374=DIRECTION('',(0.0,0.0,-1.0));
#375=AXIS2_PLACEMENT_3D('',#372,#373,#374);
#376=PLANE('',#375);
#377=CARTESIAN_POINT('',(-1.100000000000000,12.699999999999996,0.150000000000000));
#378=DIRECTION('',(0.0,-1.0,0.0));
#379=VECTOR('',#378,1.503906931433621);
#380=LINE('',#377,#379);
#381=EDGE_CURVE('',#347,#161,#380,.T.);
#382=ORIENTED_EDGE('',*,*,#381,.T.);
#383=ORIENTED_EDGE('',*,*,#166,.F.);
#384=CARTESIAN_POINT('',(-1.099999999999998,11.196093068566375,-0.150000000000000));
#385=DIRECTION('',(0.0,1.0,0.0));
#386=VECTOR('',#385,1.503906931433621);
#387=LINE('',#384,#386);
#388=EDGE_CURVE('',#152,#355,#387,.T.);
#389=ORIENTED_EDGE('',*,*,#388,.T.);
#390=ORIENTED_EDGE('',*,*,#360,.T.);
#391=EDGE_LOOP('',(#382,#383,#389,#390));
#392=FACE_OUTER_BOUND('',#391,.T.);
#393=ADVANCED_FACE('',(#392),#376,.T.);
#394=CARTESIAN_POINT('',(2.596906729149492,0.361384678988762,-0.150000000000000));
#395=DIRECTION('',(0.0,0.0,1.0));
#396=DIRECTION('',(1.0,0.0,0.0));
#397=AXIS2_PLACEMENT_3D('',#394,#395,#396);
#398=PLANE('',#397);
#399=ORIENTED_EDGE('',*,*,#233,.F.);
#400=ORIENTED_EDGE('',*,*,#272,.F.);
#401=EDGE_LOOP('',(#399,#400));
#402=FACE_OUTER_BOUND('',#401,.T.);
#403=ORIENTED_EDGE('',*,*,#388,.F.);
#404=ORIENTED_EDGE('',*,*,#158,.F.);
#405=ORIENTED_EDGE('',*,*,#198,.F.);
#406=ORIENTED_EDGE('',*,*,#305,.F.);
#407=ORIENTED_EDGE('',*,*,#335,.F.);
#408=ORIENTED_EDGE('',*,*,#366,.F.);
#409=EDGE_LOOP('',(#403,#404,#405,#406,#407,#408));
#410=FACE_BOUND('',#409,.T.);
#411=ADVANCED_FACE('',(#402,#410),#398,.F.);
#412=CARTESIAN_POINT('',(3.409090909090907,6.459479E-016,0.150000000000000));
#413=DIRECTION('',(0.0,0.0,1.0));
#414=DIRECTION('',(1.0,0.0,0.0));
#415=AXIS2_PLACEMENT_3D('',#412,#413,#414);
#416=PLANE('',#415);
#417=ORIENTED_EDGE('',*,*,#264,.F.);
#418=ORIENTED_EDGE('',*,*,#248,.F.);
#419=EDGE_LOOP('',(#417,#418));
#420=FACE_OUTER_BOUND('',#419,.T.);
#421=ORIENTED_EDGE('',*,*,#173,.F.);
#422=ORIENTED_EDGE('',*,*,#381,.F.);
#423=ORIENTED_EDGE('',*,*,#352,.F.);
#424=ORIENTED_EDGE('',*,*,#321,.F.);
#425=ORIENTED_EDGE('',*,*,#290,.F.);
#426=ORIENTED_EDGE('',*,*,#206,.F.);
#427=EDGE_LOOP('',(#421,#422,#423,#424,#425,#426));
#428=FACE_BOUND('',#427,.T.);
#429=ADVANCED_FACE('',(#420,#428),#416,.T.);
#430=CLOSED_SHELL('',(#177,#210,#252,#276,#309,#340,#371,#393,#411,#429));
#431=MANIFOLD_SOLID_BREP('66F0',#430);
#432=ADVANCED_BREP_SHAPE_REPRESENTATION('ABSR1',(#431),#129);
#433=SHAPE_REPRESENTATION_RELATIONSHIP('SRRPL1',' ',#432,#133);
#434=CARTESIAN_POINT('NONE',(0.0,0.0,0.150000000000000));
#435=DIRECTION('NONE',(0.0,0.0,1.0));
#436=DIRECTION('NONE',(1.0,0.0,0.0));
#437=AXIS2_PLACEMENT_3D('NONE',#434,#435,#436);
#438=ITEM_DEFINED_TRANSFORMATION('IDT1',' ',#121,#437);
#442=(REPRESENTATION_RELATIONSHIP(' ',' ',#133,#122)REPRESENTATION_RELATIONSHIP_WITH_TRANSFORMATION(#438)SHAPE_REPRESENTATION_RELATIONSHIP());
#443=NEXT_ASSEMBLY_USAGE_OCCURRENCE('NAUO1','M15.198.4_1','M15.198.4_1',#93,#132,$);
#444=PRODUCT_DEFINITION_SHAPE('PDS_NAUO1',' ',#443);
#445=CONTEXT_DEPENDENT_SHAPE_REPRESENTATION(#442,#444);
ENDSEC;
END-ISO-10303-21;
